  0
SECTION
  2
HEADER
  9
$ACADVER
  1
AC1014
  9
$HANDSEED
  5
FFFF
  9
$MEASUREMENT
 70
     1
  0
ENDSEC
  0
SECTION
  2
TABLES
  0
TABLE
  2
VPORT
  5
8
330
0
100
AcDbSymbolTable
 70
     4
  0
VPORT
  5
2E
330
8
100
AcDbSymbolTableRecord
100
AcDbViewportTableRecord
  2
*ACTIVE
 70
     0
 10
0.0
 20
0.0
 11
1.0
 21
1.0
 12
210.0
 22
148.5
 13
0.0
 23
0.0
 14
10.0
 24
10.0
 15
10.0
 25
10.0
 16
0.0
 26
0.0
 36
1.0
 17
0.0
 27
0.0
 37
0.0
 40
341.0
 41
1.24
 42
50.0
 43
0.0
 44
0.0
 50
0.0
 51
0.0
 71
     0
 72
   100
 73
     1
 74
     3
 75
     0
 76
     0
 77
     0
 78
     0
  0
ENDTAB
  0
TABLE
  2
LTYPE
  5
5
330
0
100
AcDbSymbolTable
 70
     1
  0
LTYPE
  5
14
330
5
100
AcDbSymbolTableRecord
100
AcDbLinetypeTableRecord
  2
BYBLOCK
 70
     0
  3

 72
    65
 73
     0
 40
0.0
  0
LTYPE
  5
15
330
5
100
AcDbSymbolTableRecord
100
AcDbLinetypeTableRecord
  2
BYLAYER
 70
     0
  3

 72
    65
 73
     0
 40
0.0
  0
LTYPE
  5
16
330
5
100
AcDbSymbolTableRecord
100
AcDbLinetypeTableRecord
  2
CONTINUOUS
 70
     0
  3
Solid line
 72
    65
 73
     0
 40
0.0
  0
ENDTAB
  0
TABLE
  2
LAYER
  5
2
100
AcDbSymbolTable
 70
2
  0
LAYER
  5
50
100
AcDbSymbolTableRecord
100
AcDbLayerTableRecord
  2
0
 70
0
  6
CONTINUOUS
  0
LAYER
  5
51
100
AcDbSymbolTableRecord
100
AcDbLayerTableRecord
  2
Layer_1
 70
0
  6
CONTINUOUS
  0
ENDTAB
  0
TABLE
  2
STYLE
  5
3
330
0
100
AcDbSymbolTable
 70
     1
  0
STYLE
  5
11
330
3
100
AcDbSymbolTableRecord
100
AcDbTextStyleTableRecord
  2
STANDARD
 70
     0
 40
0.0
 41
1.0
 50
0.0
 71
     0
 42
2.5
  3
txt
  4

  0
ENDTAB
  0
TABLE
  2
VIEW
  5
6
330
0
100
AcDbSymbolTable
 70
     0
  0
ENDTAB
  0
TABLE
  2
UCS
  5
7
330
0
100
AcDbSymbolTable
 70
     0
  0
ENDTAB
  0
TABLE
  2
APPID
  5
9
330
0
100
AcDbSymbolTable
 70
     2
  0
APPID
  5
12
330
9
100
AcDbSymbolTableRecord
100
AcDbRegAppTableRecord
  2
ACAD
 70
     0
  0
ENDTAB
  0
TABLE
  2
DIMSTYLE
  5
A
330
0
100
AcDbSymbolTable
 70
     1
  0
DIMSTYLE
105
27
330
A
100
AcDbSymbolTableRecord
100
AcDbDimStyleTableRecord
  2
ISO-25
 70
     0
  3

  4

  5

  6

  7

 40
1.0
 41
2.5
 42
0.625
 43
3.75
 44
1.25
 45
0.0
 46
0.0
 47
0.0
 48
0.0
140
2.5
141
2.5
142
0.0
143
0.03937007874016
144
1.0
145
0.0
146
1.0
147
0.625
 71
     0
 72
     0
 73
     0
 74
     0
 75
     0
 76
     0
 77
     1
 78
     8
170
     0
171
     3
172
     1
173
     0
174
     0
175
     0
176
     0
177
     0
178
     0
270
     2
271
     2
272
     2
273
     2
274
     3
340
11
275
     0
280
     0
281
     0
282
     0
283
     0
284
     8
285
     0
286
     0
287
     3
288
     0
  0
ENDTAB
  0
TABLE
  2
BLOCK_RECORD
  5
1
330
0
100
AcDbSymbolTable
 70
     1
  0
BLOCK_RECORD
  5
1F
330
1
100
AcDbSymbolTableRecord
100
AcDbBlockTableRecord
  2
*MODEL_SPACE
  0
BLOCK_RECORD
  5
1B
330
1
100
AcDbSymbolTableRecord
100
AcDbBlockTableRecord
  2
*PAPER_SPACE
  0
ENDTAB
  0
ENDSEC
  0
SECTION
  2
BLOCKS
  0
BLOCK
  5
20
330
1F
100
AcDbEntity
  8
0
100
AcDbBlockBegin
  2
*MODEL_SPACE
 70
     0
 10
0.0
 20
0.0
 30
0.0
  3
*MODEL_SPACE
  1

  0
ENDBLK
  5
21
330
1F
100
AcDbEntity
  8
0
100
AcDbBlockEnd
  0
BLOCK
  5
1C
330
1B
100
AcDbEntity
 67
     1
  8
0
100
AcDbBlockBegin
  2
*PAPER_SPACE
  1

  0
ENDBLK
  5
1D
330
1B
100
AcDbEntity
 67
     1
  8
0
100
AcDbBlockEnd
  0
ENDSEC
  0
SECTION
  2
ENTITIES
  0
LWPOLYLINE
  5
100
100
AcDbEntity
  8
Layer_1
 62
1
100
AcDbPolyline
 90
54
 70
0
 10
192.698440
 20
766.624139
 30
0.0
 10
192.698440
 20
758.403828
 30
0.0
 10
121.265624
 20
758.403828
 30
0.0
 10
121.265624
 20
686.971012
 30
0.0
 10
113.043752
 20
686.971012
 30
0.0
 10
113.043752
 20
658.906948
 30
0.0
 10
121.265624
 20
658.906948
 30
0.0
 10
121.265624
 20
630.844452
 30
0.0
 10
113.043752
 20
630.844452
 30
0.0
 10
113.043752
 20
602.781948
 30
0.0
 10
121.265624
 20
602.781948
 30
0.0
 10
121.265624
 20
574.717892
 30
0.0
 10
113.043752
 20
574.717892
 30
0.0
 10
113.043752
 20
546.655388
 30
0.0
 10
121.265624
 20
546.655388
 30
0.0
 10
121.265624
 20
475.222580
 30
0.0
 10
192.698440
 20
475.222580
 30
0.0
 10
192.698440
 20
467.002260
 30
0.0
 10
220.760936
 20
467.002260
 30
0.0
 10
220.760936
 20
475.222580
 30
0.0
 10
248.823440
 20
475.222580
 30
0.0
 10
248.823440
 20
467.002260
 30
0.0
 10
276.887504
 20
467.002260
 30
0.0
 10
276.887504
 20
475.222580
 30
0.0
 10
304.950000
 20
475.222580
 30
0.0
 10
304.950000
 20
467.002260
 30
0.0
 10
333.012496
 20
467.002260
 30
0.0
 10
333.012496
 20
475.222580
 30
0.0
 10
404.445312
 20
475.222580
 30
0.0
 10
404.445312
 20
546.655388
 30
0.0
 10
412.665624
 20
546.655388
 30
0.0
 10
412.665624
 20
574.717892
 30
0.0
 10
404.445312
 20
574.717892
 30
0.0
 10
404.445312
 20
602.781948
 30
0.0
 10
412.665624
 20
602.781948
 30
0.0
 10
412.665624
 20
630.844452
 30
0.0
 10
404.445312
 20
630.844452
 30
0.0
 10
404.445312
 20
658.906948
 30
0.0
 10
412.665624
 20
658.906948
 30
0.0
 10
412.665624
 20
686.971012
 30
0.0
 10
404.445312
 20
686.971012
 30
0.0
 10
404.445312
 20
758.403828
 30
0.0
 10
333.012496
 20
758.403828
 30
0.0
 10
333.012496
 20
766.624139
 30
0.0
 10
304.950000
 20
766.624139
 30
0.0
 10
304.950000
 20
758.403828
 30
0.0
 10
276.887504
 20
758.403828
 30
0.0
 10
276.887504
 20
766.624139
 30
0.0
 10
248.823440
 20
766.624139
 30
0.0
 10
248.823440
 20
758.403828
 30
0.0
 10
220.760936
 20
758.403828
 30
0.0
 10
220.760936
 20
766.624139
 30
0.0
 10
192.698440
 20
766.624139
 30
0.0
 10
192.698440
 20
766.624139
 30
0.0
  0
LWPOLYLINE
  5
101
100
AcDbEntity
  8
Layer_1
 62
1
100
AcDbPolyline
 90
48
 70
1
 10
112.760920
 20
1044.498884
 30
0.0
 10
112.760920
 20
973.208260
 30
0.0
 10
121.123416
 20
973.208260
 30
0.0
 10
121.123416
 20
945.145764
 30
0.0
 10
112.760920
 20
945.145764
 30
0.0
 10
112.760920
 20
917.081705
 30
0.0
 10
121.123416
 20
917.081705
 30
0.0
 10
121.123416
 20
889.019208
 30
0.0
 10
112.760920
 20
889.019208
 30
0.0
 10
112.760920
 20
860.956708
 30
0.0
 10
121.123416
 20
860.956708
 30
0.0
 10
121.123416
 20
832.892645
 30
0.0
 10
112.760920
 20
832.892645
 30
0.0
 10
112.760920
 20
761.319204
 30
0.0
 10
162.148416
 20
761.319204
 30
0.0
 10
162.432792
 20
764.167647
 30
0.0
 10
163.251544
 20
766.816082
 30
0.0
 10
164.548416
 20
769.209833
 30
0.0
 10
166.267168
 20
771.294208
 30
0.0
 10
168.351544
 20
773.012957
 30
0.0
 10
170.746856
 20
774.309833
 30
0.0
 10
173.395288
 20
775.128582
 30
0.0
 10
176.243728
 20
775.412957
 30
0.0
 10
349.182792
 20
775.412957
 30
0.0
 10
352.029664
 20
775.128582
 30
0.0
 10
354.678104
 20
774.309833
 30
0.0
 10
357.073416
 20
773.012957
 30
0.0
 10
359.157792
 20
771.294208
 30
0.0
 10
360.876544
 20
769.209833
 30
0.0
 10
362.173416
 20
766.816082
 30
0.0
 10
362.992168
 20
764.167647
 30
0.0
 10
363.278104
 20
761.319204
 30
0.0
 10
412.949976
 20
761.319204
 30
0.0
 10
412.949976
 20
832.892645
 30
0.0
 10
404.587480
 20
832.892645
 30
0.0
 10
404.587480
 20
860.956708
 30
0.0
 10
412.949976
 20
860.956708
 30
0.0
 10
412.949976
 20
889.019208
 30
0.0
 10
404.587480
 20
889.019208
 30
0.0
 10
404.587480
 20
917.081705
 30
0.0
 10
412.949976
 20
917.081705
 30
0.0
 10
412.949976
 20
945.145764
 30
0.0
 10
404.587480
 20
945.145764
 30
0.0
 10
404.587480
 20
973.208260
 30
0.0
 10
412.949976
 20
973.208260
 30
0.0
 10
412.949976
 20
1044.498884
 30
0.0
 10
112.760920
 20
1044.498884
 30
0.0
 10
112.760920
 20
1044.498884
 30
0.0
  0
LWPOLYLINE
  5
102
100
AcDbEntity
  8
Layer_1
 62
1
100
AcDbPolyline
 90
6
 70
1
 10
192.556232
 20
792.694208
 30
0.0
 10
220.618728
 20
792.694208
 30
0.0
 10
220.618728
 20
784.472333
 30
0.0
 10
192.556232
 20
784.472333
 30
0.0
 10
192.556232
 20
792.694208
 30
0.0
 10
192.556232
 20
792.694208
 30
0.0
  0
LWPOLYLINE
  5
103
100
AcDbEntity
  8
Layer_1
 62
1
100
AcDbPolyline
 90
6
 70
1
 10
248.681232
 20
792.694208
 30
0.0
 10
276.745288
 20
792.694208
 30
0.0
 10
276.745288
 20
784.472333
 30
0.0
 10
248.681232
 20
784.472333
 30
0.0
 10
248.681232
 20
792.694208
 30
0.0
 10
248.681232
 20
792.694208
 30
0.0
  0
LWPOLYLINE
  5
104
100
AcDbEntity
  8
Layer_1
 62
1
100
AcDbPolyline
 90
6
 70
1
 10
304.807792
 20
792.694208
 30
0.0
 10
332.870296
 20
792.694208
 30
0.0
 10
332.870296
 20
784.472333
 30
0.0
 10
304.807792
 20
784.472333
 30
0.0
 10
304.807792
 20
792.694208
 30
0.0
 10
304.807792
 20
792.694208
 30
0.0
  0
LWPOLYLINE
  5
105
100
AcDbEntity
  8
Layer_1
 62
1
100
AcDbPolyline
 90
115
 70
1
 10
685.028248
 20
775.706951
 30
0.0
 10
683.679816
 20
775.638199
 30
0.0
 10
682.368872
 20
775.438199
 30
0.0
 10
681.104808
 20
775.113199
 30
0.0
 10
679.892312
 20
774.669449
 30
0.0
 10
678.739184
 20
774.114761
 30
0.0
 10
677.651688
 20
773.453824
 30
0.0
 10
676.636064
 20
772.694449
 30
0.0
 10
675.698560
 20
771.842886
 30
0.0
 10
674.847000
 20
770.905386
 30
0.0
 10
674.087624
 20
769.889764
 30
0.0
 10
673.426688
 20
768.802264
 30
0.0
 10
672.870440
 20
767.649139
 30
0.0
 10
672.428248
 20
766.436639
 30
0.0
 10
672.103248
 20
765.172577
 30
0.0
 10
671.903248
 20
763.861639
 30
0.0
 10
671.834528
 20
762.513201
 30
0.0
 10
671.815808
 20
762.074139
 30
0.0
 10
671.748608
 20
761.653828
 30
0.0
 10
671.634544
 20
761.249140
 30
0.0
 10
671.476736
 20
760.866324
 30
0.0
 10
671.278296
 20
760.505388
 30
0.0
 10
671.042360
 20
760.166324
 30
0.0
 10
670.772048
 20
759.852260
 30
0.0
 10
670.470488
 20
759.566324
 30
0.0
 10
670.139232
 20
759.306948
 30
0.0
 10
669.782984
 20
759.075700
 30
0.0
 10
669.404856
 20
758.877268
 30
0.0
 10
669.004856
 20
758.711636
 30
0.0
 10
668.590800
 20
758.578828
 30
0.0
 10
668.161112
 20
758.483516
 30
0.0
 10
667.722048
 20
758.424156
 30
0.0
 10
667.273608
 20
758.403836
 30
0.0
 10
617.706424
 20
758.403836
 30
0.0
 10
617.706424
 20
766.624147
 30
0.0
 10
589.643920
 20
766.624147
 30
0.0
 10
589.643920
 20
758.403836
 30
0.0
 10
561.579864
 20
758.403836
 30
0.0
 10
561.579864
 20
766.624147
 30
0.0
 10
533.517360
 20
766.624147
 30
0.0
 10
533.517360
 20
758.403836
 30
0.0
 10
505.454856
 20
758.403836
 30
0.0
 10
505.454856
 20
766.624147
 30
0.0
 10
477.390800
 20
766.624147
 30
0.0
 10
477.390800
 20
758.403836
 30
0.0
 10
405.957984
 20
758.403836
 30
0.0
 10
405.957984
 20
717.377276
 30
0.0
 10
408.804856
 20
717.091332
 30
0.0
 10
411.454856
 20
716.272588
 30
0.0
 10
413.848608
 20
714.975708
 30
0.0
 10
415.934544
 20
713.258524
 30
0.0
 10
417.651736
 20
711.172588
 30
0.0
 10
418.948608
 20
708.778836
 30
0.0
 10
419.767360
 20
706.128836
 30
0.0
 10
420.053296
 20
703.281956
 30
0.0
 10
420.053296
 20
530.342900
 30
0.0
 10
419.767360
 20
527.496020
 30
0.0
 10
418.948608
 20
524.846020
 30
0.0
 10
417.651736
 20
522.452268
 30
0.0
 10
415.934544
 20
520.367900
 30
0.0
 10
413.848608
 20
518.649148
 30
0.0
 10
411.454856
 20
517.353836
 30
0.0
 10
408.804856
 20
516.535084
 30
0.0
 10
405.957984
 20
516.249148
 30
0.0
 10
405.957984
 20
475.222588
 30
0.0
 10
680.918920
 20
475.222588
 30
0.0
 10
680.918920
 20
745.141332
 30
0.0
 10
680.943880
 20
745.569460
 30
0.0
 10
681.014200
 20
745.986644
 30
0.0
 10
681.129832
 20
746.388212
 30
0.0
 10
681.284512
 20
746.774148
 30
0.0
 10
681.475144
 20
747.141332
 30
0.0
 10
681.700144
 20
747.486644
 30
0.0
 10
681.953264
 20
747.810084
 30
0.0
 10
682.234512
 20
748.108524
 30
0.0
 10
682.537640
 20
748.378836
 30
0.0
 10
682.862640
 20
748.619460
 30
0.0
 10
683.201704
 20
748.828836
 30
0.0
 10
683.554824
 20
749.003836
 30
0.0
 10
683.917328
 20
749.142900
 30
0.0
 10
684.286080
 20
749.242900
 30
0.0
 10
684.657952
 20
749.303860
 30
0.0
 10
685.028264
 20
749.321060
 30
0.0
 10
686.376704
 20
749.389780
 30
0.0
 10
687.687640
 20
749.588220
 30
0.0
 10
688.951704
 20
749.913220
 30
0.0
 10
690.164200
 20
750.356964
 30
0.0
 10
691.317328
 20
750.913220
 30
0.0
 10
692.404824
 20
751.574156
 30
0.0
 10
693.420456
 20
752.333532
 30
0.0
 10
694.357952
 20
753.185092
 30
0.0
 10
695.209512
 20
754.121028
 30
0.0
 10
695.968888
 20
755.136652
 30
0.0
 10
696.629832
 20
756.224156
 30
0.0
 10
697.184512
 20
757.377284
 30
0.0
 10
697.628264
 20
758.589780
 30
0.0
 10
697.953264
 20
759.853844
 30
0.0
 10
698.153264
 20
761.164780
 30
0.0
 10
698.221984
 20
762.513217
 30
0.0
 10
698.153264
 20
763.861655
 30
0.0
 10
697.954824
 20
765.172593
 30
0.0
 10
697.628264
 20
766.436655
 30
0.0
 10
697.186080
 20
767.649155
 30
0.0
 10
696.629832
 20
768.802280
 30
0.0
 10
695.968872
 20
769.889764
 30
0.0
 10
695.209496
 20
770.905389
 30
0.0
 10
694.357936
 20
771.842889
 30
0.0
 10
693.420440
 20
772.694451
 30
0.0
 10
692.404808
 20
773.453826
 30
0.0
 10
691.317312
 20
774.114764
 30
0.0
 10
690.164184
 20
774.669451
 30
0.0
 10
688.951688
 20
775.113201
 30
0.0
 10
687.687624
 20
775.438201
 30
0.0
 10
686.376688
 20
775.638201
 30
0.0
 10
685.028248
 20
775.706951
 30
0.0
  0
LWPOLYLINE
  5
106
100
AcDbEntity
  8
Layer_1
 62
1
100
AcDbPolyline
 90
65
 70
1
 10
685.028248
 20
766.905389
 30
0.0
 10
685.476688
 20
766.883517
 30
0.0
 10
685.914184
 20
766.816333
 30
0.0
 10
686.334496
 20
766.708521
 30
0.0
 10
686.737624
 20
766.560083
 30
0.0
 10
687.122000
 20
766.375708
 30
0.0
 10
687.484496
 20
766.155395
 30
0.0
 10
687.822000
 20
765.902270
 30
0.0
 10
688.134496
 20
765.619457
 30
0.0
 10
688.417312
 20
765.306957
 30
0.0
 10
688.670440
 20
764.969457
 30
0.0
 10
688.890752
 20
764.606957
 30
0.0
 10
689.075128
 20
764.222583
 30
0.0
 10
689.223560
 20
763.819457
 30
0.0
 10
689.331376
 20
763.399145
 30
0.0
 10
689.398576
 20
762.961645
 30
0.0
 10
689.420496
 20
762.513208
 30
0.0
 10
689.398576
 20
762.064770
 30
0.0
 10
689.331376
 20
761.627276
 30
0.0
 10
689.223560
 20
761.206956
 30
0.0
 10
689.075128
 20
760.803836
 30
0.0
 10
688.890752
 20
760.419460
 30
0.0
 10
688.670440
 20
760.056956
 30
0.0
 10
688.417312
 20
759.719460
 30
0.0
 10
688.134496
 20
759.406956
 30
0.0
 10
687.822000
 20
759.124148
 30
0.0
 10
687.484496
 20
758.871020
 30
0.0
 10
687.122000
 20
758.650708
 30
0.0
 10
686.737624
 20
758.466332
 30
0.0
 10
686.334496
 20
758.317900
 30
0.0
 10
685.914184
 20
758.210084
 30
0.0
 10
685.476688
 20
758.142884
 30
0.0
 10
685.028248
 20
758.121044
 30
0.0
 10
684.579816
 20
758.142884
 30
0.0
 10
684.142312
 20
758.210084
 30
0.0
 10
683.722000
 20
758.317900
 30
0.0
 10
683.318872
 20
758.466332
 30
0.0
 10
682.934496
 20
758.650708
 30
0.0
 10
682.572000
 20
758.871020
 30
0.0
 10
682.234496
 20
759.124148
 30
0.0
 10
681.922000
 20
759.406956
 30
0.0
 10
681.639184
 20
759.719460
 30
0.0
 10
681.386064
 20
760.056956
 30
0.0
 10
681.165752
 20
760.419460
 30
0.0
 10
680.981376
 20
760.803836
 30
0.0
 10
680.832936
 20
761.206956
 30
0.0
 10
680.725128
 20
761.627276
 30
0.0
 10
680.657928
 20
762.064770
 30
0.0
 10
680.636088
 20
762.513208
 30
0.0
 10
680.657928
 20
762.961645
 30
0.0
 10
680.725128
 20
763.399145
 30
0.0
 10
680.832936
 20
763.819457
 30
0.0
 10
680.981376
 20
764.222583
 30
0.0
 10
681.165752
 20
764.606957
 30
0.0
 10
681.386064
 20
764.969457
 30
0.0
 10
681.639184
 20
765.306957
 30
0.0
 10
681.922000
 20
765.619457
 30
0.0
 10
682.234496
 20
765.902270
 30
0.0
 10
682.572000
 20
766.155395
 30
0.0
 10
682.934496
 20
766.375708
 30
0.0
 10
683.318872
 20
766.560083
 30
0.0
 10
683.722000
 20
766.708521
 30
0.0
 10
684.142312
 20
766.816333
 30
0.0
 10
684.579816
 20
766.881957
 30
0.0
 10
685.028248
 20
766.905389
 30
0.0
  0
LWPOLYLINE
  5
107
100
AcDbEntity
  8
Layer_1
 62
1
100
AcDbPolyline
 90
5
 70
1
 10
429.112624
 20
686.971012
 30
0.0
 10
437.332936
 20
686.971012
 30
0.0
 10
437.332936
 20
658.906948
 30
0.0
 10
429.112624
 20
658.906948
 30
0.0
 10
429.112624
 20
686.971012
 30
0.0
  0
LWPOLYLINE
  5
108
100
AcDbEntity
  8
Layer_1
 62
1
100
AcDbPolyline
 90
5
 70
1
 10
429.112624
 20
630.844452
 30
0.0
 10
437.332936
 20
630.844452
 30
0.0
 10
437.332936
 20
602.781948
 30
0.0
 10
429.112624
 20
602.781948
 30
0.0
 10
429.112624
 20
630.844452
 30
0.0
  0
LWPOLYLINE
  5
109
100
AcDbEntity
  8
Layer_1
 62
1
100
AcDbPolyline
 90
5
 70
1
 10
429.112624
 20
574.717892
 30
0.0
 10
437.332936
 20
574.717892
 30
0.0
 10
437.332936
 20
546.655388
 30
0.0
 10
429.112624
 20
546.655388
 30
0.0
 10
429.112624
 20
574.717892
 30
0.0
  0
LWPOLYLINE
  5
10a
100
AcDbEntity
  8
Layer_1
 62
1
100
AcDbPolyline
 90
5
 70
1
 10
477.390752
 20
474.938204
 30
0.0
 10
477.390752
 20
466.717892
 30
0.0
 10
505.454808
 20
466.717892
 30
0.0
 10
505.454808
 20
474.938204
 30
0.0
 10
477.390752
 20
474.938204
 30
0.0
  0
LWPOLYLINE
  5
10b
100
AcDbEntity
  8
Layer_1
 62
1
100
AcDbPolyline
 90
5
 70
1
 10
533.517312
 20
474.938204
 30
0.0
 10
533.517312
 20
466.717892
 30
0.0
 10
561.579816
 20
466.717892
 30
0.0
 10
561.579816
 20
474.938204
 30
0.0
 10
533.517312
 20
474.938204
 30
0.0
  0
LWPOLYLINE
  5
10c
100
AcDbEntity
  8
Layer_1
 62
1
100
AcDbPolyline
 90
5
 70
1
 10
589.643872
 20
474.938204
 30
0.0
 10
589.643872
 20
466.717892
 30
0.0
 10
617.706376
 20
466.717892
 30
0.0
 10
617.706376
 20
474.938204
 30
0.0
 10
589.643872
 20
474.938204
 30
0.0
  0
LWPOLYLINE
  5
10d
100
AcDbEntity
  8
Layer_1
 62
1
100
AcDbPolyline
 90
11
 70
1
 10
419.702360
 20
1080.509780
 30
0.0
 10
702.875160
 20
1080.509780
 30
0.0
 10
710.657320
 20
1080.655676
 30
0.0
 10
710.657320
 20
1072.293932
 30
0.0
 10
702.875160
 20
1072.293932
 30
0.0
 10
702.875160
 20
780.896181
 30
0.0
 10
419.702360
 20
780.896181
 30
0.0
 10
419.702360
 20
1072.293932
 30
0.0
 10
411.481720
 20
1072.293932
 30
0.0
 10
411.481720
 20
1080.655676
 30
0.0
 10
419.702360
 20
1080.509780
 30
0.0
  0
LWPOLYLINE
  5
10e
100
AcDbEntity
  8
Layer_1
 62
1
100
AcDbPolyline
 90
115
 70
1
 10
-162.422208
 20
775.706951
 30
0.0
 10
-161.073776
 20
775.638199
 30
0.0
 10
-159.762832
 20
775.438199
 30
0.0
 10
-158.498768
 20
775.113199
 30
0.0
 10
-157.286272
 20
774.669449
 30
0.0
 10
-156.133144
 20
774.114761
 30
0.0
 10
-155.045648
 20
773.453824
 30
0.0
 10
-154.030024
 20
772.694449
 30
0.0
 10
-153.092520
 20
771.842886
 30
0.0
 10
-152.240960
 20
770.905386
 30
0.0
 10
-151.481584
 20
769.889764
 30
0.0
 10
-150.820648
 20
768.802264
 30
0.0
 10
-150.264400
 20
767.649139
 30
0.0
 10
-149.822208
 20
766.436639
 30
0.0
 10
-149.497208
 20
765.172577
 30
0.0
 10
-149.297208
 20
763.861639
 30
0.0
 10
-149.228488
 20
762.513201
 30
0.0
 10
-149.209768
 20
762.074139
 30
0.0
 10
-149.142568
 20
761.653828
 30
0.0
 10
-149.028504
 20
761.249140
 30
0.0
 10
-148.870696
 20
760.866324
 30
0.0
 10
-148.672256
 20
760.505388
 30
0.0
 10
-148.436320
 20
760.166324
 30
0.0
 10
-148.166008
 20
759.852260
 30
0.0
 10
-147.864448
 20
759.566324
 30
0.0
 10
-147.533192
 20
759.306948
 30
0.0
 10
-147.176944
 20
759.075700
 30
0.0
 10
-146.798816
 20
758.877268
 30
0.0
 10
-146.398816
 20
758.711636
 30
0.0
 10
-145.984760
 20
758.578828
 30
0.0
 10
-145.555072
 20
758.483516
 30
0.0
 10
-145.116008
 20
758.424156
 30
0.0
 10
-144.667568
 20
758.403836
 30
0.0
 10
-95.100384
 20
758.403836
 30
0.0
 10
-95.100384
 20
766.624147
 30
0.0
 10
-67.037882
 20
766.624147
 30
0.0
 10
-67.037882
 20
758.403836
 30
0.0
 10
-38.973826
 20
758.403836
 30
0.0
 10
-38.973826
 20
766.624147
 30
0.0
 10
-10.911322
 20
766.624147
 30
0.0
 10
-10.911322
 20
758.403836
 30
0.0
 10
17.151182
 20
758.403836
 30
0.0
 10
17.151182
 20
766.624147
 30
0.0
 10
45.215238
 20
766.624147
 30
0.0
 10
45.215238
 20
758.403836
 30
0.0
 10
116.648056
 20
758.403836
 30
0.0
 10
116.648056
 20
717.377276
 30
0.0
 10
113.801184
 20
717.091332
 30
0.0
 10
111.151184
 20
716.272588
 30
0.0
 10
108.757432
 20
714.975708
 30
0.0
 10
106.671496
 20
713.258524
 30
0.0
 10
104.954304
 20
711.172588
 30
0.0
 10
103.657432
 20
708.778836
 30
0.0
 10
102.838680
 20
706.128836
 30
0.0
 10
102.552744
 20
703.281956
 30
0.0
 10
102.552744
 20
530.342900
 30
0.0
 10
102.838680
 20
527.496020
 30
0.0
 10
103.657432
 20
524.846020
 30
0.0
 10
104.954304
 20
522.452268
 30
0.0
 10
106.671496
 20
520.367900
 30
0.0
 10
108.757432
 20
518.649148
 30
0.0
 10
111.151184
 20
517.353836
 30
0.0
 10
113.801184
 20
516.535084
 30
0.0
 10
116.648056
 20
516.249148
 30
0.0
 10
116.648056
 20
475.222588
 30
0.0
 10
-158.312880
 20
475.222588
 30
0.0
 10
-158.312880
 20
745.141332
 30
0.0
 10
-158.337840
 20
745.569460
 30
0.0
 10
-158.408160
 20
745.986644
 30
0.0
 10
-158.523792
 20
746.388212
 30
0.0
 10
-158.678472
 20
746.774148
 30
0.0
 10
-158.869104
 20
747.141332
 30
0.0
 10
-159.094104
 20
747.486644
 30
0.0
 10
-159.347224
 20
747.810084
 30
0.0
 10
-159.628472
 20
748.108524
 30
0.0
 10
-159.931600
 20
748.378836
 30
0.0
 10
-160.256600
 20
748.619460
 30
0.0
 10
-160.595664
 20
748.828836
 30
0.0
 10
-160.948784
 20
749.003836
 30
0.0
 10
-161.311288
 20
749.142900
 30
0.0
 10
-161.680040
 20
749.242900
 30
0.0
 10
-162.051912
 20
749.303860
 30
0.0
 10
-162.422224
 20
749.321060
 30
0.0
 10
-163.770664
 20
749.389780
 30
0.0
 10
-165.081600
 20
749.588220
 30
0.0
 10
-166.345664
 20
749.913220
 30
0.0
 10
-167.558160
 20
750.356964
 30
0.0
 10
-168.711288
 20
750.913220
 30
0.0
 10
-169.798784
 20
751.574156
 30
0.0
 10
-170.814416
 20
752.333532
 30
0.0
 10
-171.751912
 20
753.185092
 30
0.0
 10
-172.603472
 20
754.121028
 30
0.0
 10
-173.362848
 20
755.136652
 30
0.0
 10
-174.023792
 20
756.224156
 30
0.0
 10
-174.578472
 20
757.377284
 30
0.0
 10
-175.022224
 20
758.589780
 30
0.0
 10
-175.347224
 20
759.853844
 30
0.0
 10
-175.547224
 20
761.164780
 30
0.0
 10
-175.615944
 20
762.513217
 30
0.0
 10
-175.547224
 20
763.861655
 30
0.0
 10
-175.348784
 20
765.172593
 30
0.0
 10
-175.022224
 20
766.436655
 30
0.0
 10
-174.580040
 20
767.649155
 30
0.0
 10
-174.023792
 20
768.802280
 30
0.0
 10
-173.362832
 20
769.889764
 30
0.0
 10
-172.603456
 20
770.905389
 30
0.0
 10
-171.751896
 20
771.842889
 30
0.0
 10
-170.814400
 20
772.694451
 30
0.0
 10
-169.798768
 20
773.453826
 30
0.0
 10
-168.711272
 20
774.114764
 30
0.0
 10
-167.558144
 20
774.669451
 30
0.0
 10
-166.345648
 20
775.113201
 30
0.0
 10
-165.081584
 20
775.438201
 30
0.0
 10
-163.770648
 20
775.638201
 30
0.0
 10
-162.422208
 20
775.706951
 30
0.0
  0
LWPOLYLINE
  5
10f
100
AcDbEntity
  8
Layer_1
 62
1
100
AcDbPolyline
 90
65
 70
1
 10
-162.422208
 20
766.905389
 30
0.0
 10
-162.870648
 20
766.883517
 30
0.0
 10
-163.308144
 20
766.816333
 30
0.0
 10
-163.728456
 20
766.708521
 30
0.0
 10
-164.131584
 20
766.560083
 30
0.0
 10
-164.515960
 20
766.375708
 30
0.0
 10
-164.878456
 20
766.155395
 30
0.0
 10
-165.215960
 20
765.902270
 30
0.0
 10
-165.528456
 20
765.619457
 30
0.0
 10
-165.811272
 20
765.306957
 30
0.0
 10
-166.064400
 20
764.969457
 30
0.0
 10
-166.284712
 20
764.606957
 30
0.0
 10
-166.469088
 20
764.222583
 30
0.0
 10
-166.617520
 20
763.819457
 30
0.0
 10
-166.725336
 20
763.399145
 30
0.0
 10
-166.792536
 20
762.961645
 30
0.0
 10
-166.814456
 20
762.513208
 30
0.0
 10
-166.792536
 20
762.064770
 30
0.0
 10
-166.725336
 20
761.627276
 30
0.0
 10
-166.617520
 20
761.206956
 30
0.0
 10
-166.469088
 20
760.803836
 30
0.0
 10
-166.284712
 20
760.419460
 30
0.0
 10
-166.064400
 20
760.056956
 30
0.0
 10
-165.811272
 20
759.719460
 30
0.0
 10
-165.528456
 20
759.406956
 30
0.0
 10
-165.215960
 20
759.124148
 30
0.0
 10
-164.878456
 20
758.871020
 30
0.0
 10
-164.515960
 20
758.650708
 30
0.0
 10
-164.131584
 20
758.466332
 30
0.0
 10
-163.728456
 20
758.317900
 30
0.0
 10
-163.308144
 20
758.210084
 30
0.0
 10
-162.870648
 20
758.142884
 30
0.0
 10
-162.422208
 20
758.121044
 30
0.0
 10
-161.973776
 20
758.142884
 30
0.0
 10
-161.536272
 20
758.210084
 30
0.0
 10
-161.115960
 20
758.317900
 30
0.0
 10
-160.712832
 20
758.466332
 30
0.0
 10
-160.328456
 20
758.650708
 30
0.0
 10
-159.965960
 20
758.871020
 30
0.0
 10
-159.628456
 20
759.124148
 30
0.0
 10
-159.315960
 20
759.406956
 30
0.0
 10
-159.033144
 20
759.719460
 30
0.0
 10
-158.780024
 20
760.056956
 30
0.0
 10
-158.559712
 20
760.419460
 30
0.0
 10
-158.375336
 20
760.803836
 30
0.0
 10
-158.226896
 20
761.206956
 30
0.0
 10
-158.119088
 20
761.627276
 30
0.0
 10
-158.051888
 20
762.064770
 30
0.0
 10
-158.030048
 20
762.513208
 30
0.0
 10
-158.051888
 20
762.961645
 30
0.0
 10
-158.119088
 20
763.399145
 30
0.0
 10
-158.226896
 20
763.819457
 30
0.0
 10
-158.375336
 20
764.222583
 30
0.0
 10
-158.559712
 20
764.606957
 30
0.0
 10
-158.780024
 20
764.969457
 30
0.0
 10
-159.033144
 20
765.306957
 30
0.0
 10
-159.315960
 20
765.619457
 30
0.0
 10
-159.628456
 20
765.902270
 30
0.0
 10
-159.965960
 20
766.155395
 30
0.0
 10
-160.328456
 20
766.375708
 30
0.0
 10
-160.712832
 20
766.560083
 30
0.0
 10
-161.115960
 20
766.708521
 30
0.0
 10
-161.536272
 20
766.816333
 30
0.0
 10
-161.973776
 20
766.881957
 30
0.0
 10
-162.422208
 20
766.905389
 30
0.0
  0
LWPOLYLINE
  5
110
100
AcDbEntity
  8
Layer_1
 62
1
100
AcDbPolyline
 90
5
 70
1
 10
93.493416
 20
686.971012
 30
0.0
 10
85.273104
 20
686.971012
 30
0.0
 10
85.273104
 20
658.906948
 30
0.0
 10
93.493416
 20
658.906948
 30
0.0
 10
93.493416
 20
686.971012
 30
0.0
  0
LWPOLYLINE
  5
111
100
AcDbEntity
  8
Layer_1
 62
1
100
AcDbPolyline
 90
5
 70
1
 10
93.493416
 20
630.844452
 30
0.0
 10
85.273104
 20
630.844452
 30
0.0
 10
85.273104
 20
602.781948
 30
0.0
 10
93.493416
 20
602.781948
 30
0.0
 10
93.493416
 20
630.844452
 30
0.0
  0
LWPOLYLINE
  5
112
100
AcDbEntity
  8
Layer_1
 62
1
100
AcDbPolyline
 90
5
 70
1
 10
93.493416
 20
574.717892
 30
0.0
 10
85.273104
 20
574.717892
 30
0.0
 10
85.273104
 20
546.655388
 30
0.0
 10
93.493416
 20
546.655388
 30
0.0
 10
93.493416
 20
574.717892
 30
0.0
  0
LWPOLYLINE
  5
113
100
AcDbEntity
  8
Layer_1
 62
1
100
AcDbPolyline
 90
5
 70
1
 10
45.215286
 20
474.938204
 30
0.0
 10
45.215286
 20
466.717892
 30
0.0
 10
17.151230
 20
466.717892
 30
0.0
 10
17.151230
 20
474.938204
 30
0.0
 10
45.215286
 20
474.938204
 30
0.0
  0
LWPOLYLINE
  5
114
100
AcDbEntity
  8
Layer_1
 62
1
100
AcDbPolyline
 90
5
 70
1
 10
-10.911274
 20
474.938204
 30
0.0
 10
-10.911274
 20
466.717892
 30
0.0
 10
-38.973778
 20
466.717892
 30
0.0
 10
-38.973778
 20
474.938204
 30
0.0
 10
-10.911274
 20
474.938204
 30
0.0
  0
LWPOLYLINE
  5
115
100
AcDbEntity
  8
Layer_1
 62
1
100
AcDbPolyline
 90
5
 70
1
 10
-67.037834
 20
474.938204
 30
0.0
 10
-67.037834
 20
466.717892
 30
0.0
 10
-95.100336
 20
466.717892
 30
0.0
 10
-95.100336
 20
474.938204
 30
0.0
 10
-67.037834
 20
474.938204
 30
0.0
  0
ENDSEC
  0
SECTION
  2
OBJECTS
  0
DICTIONARY
  5
C
330
0
100
AcDbDictionary
  3
ACAD_GROUP
350
D
  3
ACAD_MLINESTYLE
350
17
  0
DICTIONARY
  5
D
330
C
100
AcDbDictionary
  0
DICTIONARY
  5
1A
330
C
100
AcDbDictionary
  0
DICTIONARY
  5
17
330
C
100
AcDbDictionary
  3
STANDARD
350
18
  0
DICTIONARY
  5
19
330
C
100
AcDbDictionary
  0
ENDSEC
  0
EOF
